You've Got To Hide Your Love Away Chords & Lyrics by The Beatles

The Beatles - You've Got To Hide Your Love Away Guitar Chords & Lyrics :




Intro: G

G D11 F9 G C F9 C
Here I stand with head in hand turn my face to the wall.
G D11 F9 G C F9 C D D11 D
If she's gone I can't go on,feeling two foot small.
G D11 F9 G C F9 C
Everywhere people stare each and every day,
G D11 F9 G C F9 C D D/C D4/B D4/A
I can see them laugh at me and I hear them say

I can see them laugh at me and I hear them say


G C D11 D D9 D
Hey, you've got to hide your love away.
G C D11 D D9 D
Hey, you've got to hide your love away.



G D11 F9 G C F9 C
How can I even try I can never win
G D11 F9 G C F9 C D D11 D
Hearing them, seeing them in the state I'm in
G D11 F9 G C F9 C
How could she say to me (Love will find a way)?
G D11 F9 G C F9 C D D/C D4/B D4/A
Gather around, all you clowns, let me hear you say..ay..ay



G C D11 D D9 D
Hey, you've got to hide your love away.
G C D11 D D9 D
Hey, you've got to hide your love away.



Solo: G D11 F9 G C F9 C (2x) G


e|-----------------------------------11/12---12-12-12-12------------|
B|--8---8-8-8-8---10---10-10-10-10-------------------------12\10-8--|
G|------------------------------------8/9-----9--9--9--9------------|
D|--5---5-5-5-5---7----7--7--7--7---------------------------9\7--5--|
A|------------------------------------------------------------------|
E|------------------------------------------------------------------|




e|-------------------------10--8---8-8-8----------------------------|
B|--8---8-8-8-8--10--8-8-------------------12---10------------------|
G|-------------------------7---5---5-5-5----------------------------|
D|--5---5-5-5-5--7---5-5-------------------9----7-------------------|
A|------------------------------------------------------------------|
E|------------------------------------------------------------------|




e|-----------------------------------11/12---12-12-12-12------------|
B|--8---8-8-8-8---10---10-10-10-10-------------------------12\10-8--|
G|------------------------------------8/9-----9--9--9--9------------|
D|--5---5-5-5-5---7----7--7--7--7---------------------------9\7--5--|
A|------------------------------------------------------------------|
E|------------------------------------------------------------------|





e|-------------------------10--8---8-8-8---7/8--7/8--8/10-----------|
B|--8---8-8-8-8--10--8-8--------------------------------------------|
G|-------------------------7---5---5-5-5---4/5--4/5--7/5------------|
D|--5---5-5-5-5--7---5-5--------------------------------------------|
A|------------------------------------------------------------------|
E|------------------------------------------------------------------|






---> Loading Time :0.018988132476807